ISO-10303-21;
HEADER;
FILE_DESCRIPTION (( 'STEP AP203' ),
    '1' );
FILE_NAME ('QM-AAQWP-10-900-2100-M.STEP',
    '2021-01-05T02:42:09',
    ( '' ),
    ( '' ),
    'SwSTEP 2.0',
    'SolidWorks 2020',
    '' );
FILE_SCHEMA (( 'CONFIG_CONTROL_DESIGN' ));
ENDSEC;

DATA;
#1 = EDGE_CURVE ( 'NONE', #321, #219, #252, .T. ) ;
#2 = LINE ( 'NONE', #76, #280 ) ;
#3 = AXIS2_PLACEMENT_3D ( 'NONE', #182, #103, #211 ) ;
#4 = DIRECTION ( 'NONE',  ( 1.000000000000000000, 0.000000000000000000, 0.000000000000000000 ) ) ;
#5 = DIRECTION ( 'NONE',  ( 0.000000000000000000, 0.000000000000000000, -1.000000000000000000 ) ) ;
#6 = EDGE_LOOP ( 'NONE', ( #8, #212, #313, #232 ) ) ;
#7 = CARTESIAN_POINT ( 'NONE',  ( -0.5000000000000002220, 5.000000000000000000, 0.000000000000000000 ) ) ;
#8 = ORIENTED_EDGE ( 'NONE', *, *, #72, .F. ) ;
#9 = CIRCLE ( 'NONE', #80, 5.000000000000001776 ) ;
#10 = ADVANCED_FACE ( 'NONE', ( #238 ), #16, .F. ) ;
#11 = DIRECTION ( 'NONE',  ( -0.000000000000000000, 0.000000000000000000, 1.000000000000000000 ) ) ;
#12 = APPLICATION_PROTOCOL_DEFINITION ( 'international standard', 'config_control_design', 1994, #159 ) ;
#13 = CARTESIAN_POINT ( 'NONE',  ( 0.5000000000000004441, 0.000000000000000000, 0.000000000000000000 ) ) ;
#14 = EDGE_LOOP ( 'NONE', ( #183, #132, #71, #33 ) ) ;
#15 = DATE_AND_TIME ( #242, #281 ) ;
#16 = CYLINDRICAL_SURFACE ( 'NONE', #314, 5.000000000000000888 ) ;
#17 = PRODUCT_RELATED_PRODUCT_CATEGORY ( 'detail', '', ( #61 ) ) ;
#18 = CARTESIAN_POINT ( 'NONE',  ( 0.5000000000000004441, 0.000000000000000000, 0.000000000000000000 ) ) ;
#19 = PLANE ( 'NONE',  #44 ) ;
#20 = PERSON_AND_ORGANIZATION ( #256, #22 ) ;
#21 = CYLINDRICAL_SURFACE ( 'NONE', #144, 5.000000000000000888 ) ;
#22 = ORGANIZATION ( 'UNSPECIFIED', 'UNSPECIFIED', '' ) ;
#23 = DIRECTION ( 'NONE',  ( 1.000000000000000000, 0.000000000000000000, 0.000000000000000000 ) ) ;
#24 = ADVANCED_FACE ( 'NONE', ( #118 ), #217, .T. ) ;
#25 = ADVANCED_FACE ( 'NONE', ( #169, #45 ), #143, .F. ) ;
#26 = CC_DESIGN_DATE_AND_TIME_ASSIGNMENT ( #244, #42, ( #48 ) ) ;
#27 = CYLINDRICAL_SURFACE ( 'NONE', #284, 5.000000000000000888 ) ;
#28 = CARTESIAN_POINT ( 'NONE',  ( -1.614212418857619014, 0.000000000000000000, 0.000000000000000000 ) ) ;
#29 = EDGE_LOOP ( 'NONE', ( #214, #151 ) ) ;
#30 = LINE ( 'NONE', #32, #145 ) ;
#31 = PERSON_AND_ORGANIZATION ( #256, #22 ) ;
#32 = CARTESIAN_POINT ( 'NONE',  ( -1.614212418857619014, 1.555301434917138433E-15, -12.69999999999999929 ) ) ;
#33 = ORIENTED_EDGE ( 'NONE', *, *, #157, .T. ) ;
#34 = CARTESIAN_POINT ( 'NONE',  ( 0.5000000000000004441, 0.000000000000000000, 5.000000000000000000 ) ) ;
#35 = CARTESIAN_POINT ( 'NONE',  ( -1.614212418857619014, 0.000000000000000000, 0.000000000000000000 ) ) ;
#36 = DATE_AND_TIME ( #133, #205 ) ;
#37 = DIRECTION ( 'NONE',  ( 0.000000000000000000, 0.000000000000000000, 1.000000000000000000 ) ) ;
#38 = ADVANCED_FACE ( 'NONE', ( #164 ), #19, .F. ) ;
#39 = DIRECTION ( 'NONE',  ( -1.000000000000000000, -0.000000000000000000, -0.000000000000000000 ) ) ;
#40 = DIRECTION ( 'NONE',  ( 1.000000000000000000, 0.000000000000000000, 0.000000000000000000 ) ) ;
#41 = DIRECTION ( 'NONE',  ( 0.000000000000000000, 0.000000000000000000, 1.000000000000000000 ) ) ;
#42 = DATE_TIME_ROLE ( 'creation_date' ) ;
#43 = FACE_BOUND ( 'NONE', #63, .T. ) ;
#44 = AXIS2_PLACEMENT_3D ( 'NONE', #94, #221, #11 ) ;
#45 = FACE_OUTER_BOUND ( 'NONE', #298, .T. ) ;
#46 = AXIS2_PLACEMENT_3D ( 'NONE', #28, #77, #85 ) ;
#47 = ADVANCED_FACE ( 'NONE', ( #109 ), #191, .T. ) ;
#48 = PRODUCT_DEFINITION ( 'UNKNOWN', '', #228, #223 ) ;
#49 = DIRECTION ( 'NONE',  ( 0.000000000000000000, 0.000000000000000000, 1.000000000000000000 ) ) ;
#50 = ORIENTED_EDGE ( 'NONE', *, *, #234, .F. ) ;
#51 = EDGE_CURVE ( 'NONE', #89, #261, #9, .T. ) ;
#52 = AXIS2_PLACEMENT_3D ( 'NONE', #167, #39, #138 ) ;
#53 = EDGE_CURVE ( 'NONE', #319, #128, #148, .T. ) ;
#54 = FACE_OUTER_BOUND ( 'NONE', #91, .T. ) ;
#55 = APPROVAL_STATUS ( 'not_yet_approved' ) ;
#56 = LINE ( 'NONE', #307, #195 ) ;
#57 = ADVANCED_FACE ( 'NONE', ( #299, #43 ), #93, .F. ) ;
#58 = VERTEX_POINT ( 'NONE', #215 ) ;
#59 = ORIENTED_EDGE ( 'NONE', *, *, #274, .T. ) ;
#60 = LINE ( 'NONE', #203, #115 ) ;
#61 = PRODUCT ( 'QM-AAQWP-10-900-2100-M', 'QM-AAQWP-10-900-2100-M', '', ( #304 ) ) ;
#62 = CIRCLE ( 'NONE', #253, 12.69999999999999929 ) ;
#63 = EDGE_LOOP ( 'NONE', ( #243, #111 ) ) ;
#64 = COORDINATED_UNIVERSAL_TIME_OFFSET ( 8, 0, .AHEAD. ) ;
#65 = APPLICATION_CONTEXT ( 'configuration controlled 3d designs of mechanical parts and assemblies' ) ;
#66 = CARTESIAN_POINT ( 'NONE',  ( 3.000000000000000000, 0.000000000000000000, 0.000000000000000000 ) ) ;
#67 = DIRECTION ( 'NONE',  ( -1.000000000000000000, -0.000000000000000000, -0.000000000000000000 ) ) ;
#68 = UNCERTAINTY_MEASURE_WITH_UNIT (LENGTH_MEASURE( 1.000000000000000082E-05 ), #150, 'distance_accuracy_value', 'NONE');
#69 = APPROVAL_DATE_TIME ( #36, #279 ) ;
#70 = CARTESIAN_POINT ( 'NONE',  ( -3.000000000000000000, 0.000000000000000000, 0.000000000000000000 ) ) ;
#71 = ORIENTED_EDGE ( 'NONE', *, *, #194, .T. ) ;
#72 = EDGE_CURVE ( 'NONE', #261, #199, #263, .T. ) ;
#73 = CIRCLE ( 'NONE', #246, 12.69999999999999929 ) ;
#74 = COORDINATED_UNIVERSAL_TIME_OFFSET ( 8, 0, .AHEAD. ) ;
#75 = MANIFOLD_SOLID_BREP ( 'Ðý×', #172 ) ;
#76 = CARTESIAN_POINT ( 'NONE',  ( -1.614212418857619014, 6.123233995736767268E-16, -5.000000000000000888 ) ) ;
#77 = DIRECTION ( 'NONE',  ( -1.000000000000000000, -0.000000000000000000, -0.000000000000000000 ) ) ;
#78 = DIRECTION ( 'NONE',  ( -1.000000000000000000, -0.000000000000000000, -0.000000000000000000 ) ) ;
#79 = ORIENTED_EDGE ( 'NONE', *, *, #312, .F. ) ;
#80 = AXIS2_PLACEMENT_3D ( 'NONE', #66, #113, #37 ) ;
#81 = DIRECTION ( 'NONE',  ( 0.000000000000000000, 0.000000000000000000, 1.000000000000000000 ) ) ;
#82 = VERTEX_POINT ( 'NONE', #34 ) ;
#83 = CIRCLE ( 'NONE', #310, 5.000000000000000000 ) ;
#84 = APPROVAL_PERSON_ORGANIZATION ( #239, #229, #141 ) ;
#85 = DIRECTION ( 'NONE',  ( 0.000000000000000000, 0.000000000000000000, 1.000000000000000000 ) ) ;
#86 = ORIENTED_EDGE ( 'NONE', *, *, #1, .T. ) ;
#87 = DIRECTION ( 'NONE',  ( 0.000000000000000000, 0.000000000000000000, 1.000000000000000000 ) ) ;
#88 = APPROVAL_STATUS ( 'not_yet_approved' ) ;
#89 = VERTEX_POINT ( 'NONE', #201 ) ;
#90 = DIRECTION ( 'NONE',  ( 0.000000000000000000, 0.000000000000000000, 1.000000000000000000 ) ) ;
#91 = EDGE_LOOP ( 'NONE', ( #104, #130, #210, #126 ) ) ;
#92 = PERSON_AND_ORGANIZATION ( #256, #22 ) ;
#93 = PLANE ( 'NONE',  #315 ) ;
#94 = CARTESIAN_POINT ( 'NONE',  ( 0.5000000000000002220, 5.000000000000000000, 0.000000000000000000 ) ) ;
#95 = DIRECTION ( 'NONE',  ( 0.000000000000000000, 0.000000000000000000, 1.000000000000000000 ) ) ;
#96 = CIRCLE ( 'NONE', #291, 5.000000000000000000 ) ;
#97 = PERSON_AND_ORGANIZATION ( #256, #22 ) ;
#98 = CC_DESIGN_APPROVAL ( #279, ( #48 ) ) ;
#99 = COORDINATED_UNIVERSAL_TIME_OFFSET ( 8, 0, .AHEAD. ) ;
#100 =( NAMED_UNIT ( * ) PLANE_ANGLE_UNIT ( ) SI_UNIT ( $, .RADIAN. ) );
#101 = LOCAL_TIME ( 10, 42, 9.000000000000000000, #99 ) ;
#102 = VERTEX_POINT ( 'NONE', #171 ) ;
#103 = DIRECTION ( 'NONE',  ( 1.000000000000000000, 0.000000000000000000, 0.000000000000000000 ) ) ;
#104 = ORIENTED_EDGE ( 'NONE', *, *, #119, .F. ) ;
#105 = EDGE_LOOP ( 'NONE', ( #251, #202, #158, #162 ) ) ;
#106 = VECTOR ( 'NONE', #302, 1000.000000000000000 ) ;
#107 = CARTESIAN_POINT ( 'NONE',  ( -3.000000000000000000, 0.000000000000000000, 0.000000000000000000 ) ) ;
#108 = EDGE_LOOP ( 'NONE', ( #257, #59, #270, #236 ) ) ;
#109 = FACE_OUTER_BOUND ( 'NONE', #105, .T. ) ;
#110 = DIRECTION ( 'NONE',  ( -1.000000000000000000, -0.000000000000000000, -0.000000000000000000 ) ) ;
#111 = ORIENTED_EDGE ( 'NONE', *, *, #119, .T. ) ;
#112 = PERSON_AND_ORGANIZATION ( #256, #22 ) ;
#113 = DIRECTION ( 'NONE',  ( -1.000000000000000000, -0.000000000000000000, -0.000000000000000000 ) ) ;
#114 = DIRECTION ( 'NONE',  ( -1.000000000000000000, -0.000000000000000000, -0.000000000000000000 ) ) ;
#115 = VECTOR ( 'NONE', #189, 1000.000000000000000 ) ;
#116 = DIRECTION ( 'NONE',  ( 0.000000000000000000, 0.000000000000000000, -1.000000000000000000 ) ) ;
#117 = EDGE_CURVE ( 'NONE', #328, #219, #134, .T. ) ;
#118 = FACE_OUTER_BOUND ( 'NONE', #140, .T. ) ;
#119 = EDGE_CURVE ( 'NONE', #261, #89, #149, .T. ) ;
#120 = AXIS2_PLACEMENT_3D ( 'NONE', #317, #235, #81 ) ;
#121 = PERSON_AND_ORGANIZATION_ROLE ( 'classification_officer' ) ;
#122 = PERSON_AND_ORGANIZATION_ROLE ( 'design_supplier' ) ;
#123 = CIRCLE ( 'NONE', #3, 5.000000000000000888 ) ;
#124 = CC_DESIGN_PERSON_AND_ORGANIZATION_ASSIGNMENT ( #97, #121, ( #129 ) ) ;
#125 = CARTESIAN_POINT ( 'NONE',  ( 3.000000000000000000, 0.000000000000000000, 0.000000000000000000 ) ) ;
#126 = ORIENTED_EDGE ( 'NONE', *, *, #176, .F. ) ;
#127 = ADVANCED_FACE ( 'NONE', ( #323 ), #21, .F. ) ;
#128 = VERTEX_POINT ( 'NONE', #329 ) ;
#129 = SECURITY_CLASSIFICATION ( '', '', #178 ) ;
#130 = ORIENTED_EDGE ( 'NONE', *, *, #72, .T. ) ;
#131 = DIRECTION ( 'NONE',  ( 0.000000000000000000, 0.000000000000000000, 1.000000000000000000 ) ) ;
#132 = ORIENTED_EDGE ( 'NONE', *, *, #312, .T. ) ;
#133 = CALENDAR_DATE ( 2021, 5, 1 ) ;
#134 = LINE ( 'NONE', #166, #308 ) ;
#135 = DIRECTION ( 'NONE',  ( -1.000000000000000000, -0.000000000000000000, -0.000000000000000000 ) ) ;
#136 = COORDINATED_UNIVERSAL_TIME_OFFSET ( 8, 0, .AHEAD. ) ;
#137 = DIRECTION ( 'NONE',  ( -1.000000000000000000, 0.000000000000000000, -0.000000000000000000 ) ) ;
#138 = DIRECTION ( 'NONE',  ( 0.000000000000000000, 0.000000000000000000, 1.000000000000000000 ) ) ;
#139 = DIRECTION ( 'NONE',  ( -1.000000000000000000, -0.000000000000000000, -0.000000000000000000 ) ) ;
#140 = EDGE_LOOP ( 'NONE', ( #306, #318, #186, #156 ) ) ;
#141 = APPROVAL_ROLE ( '' ) ;
#142 = DIRECTION ( 'NONE',  ( -1.000000000000000000, -0.000000000000000000, -0.000000000000000000 ) ) ;
#143 = PLANE ( 'NONE',  #277 ) ;
#144 = AXIS2_PLACEMENT_3D ( 'NONE', #305, #139, #90 ) ;
#145 = VECTOR ( 'NONE', #230, 1000.000000000000000 ) ;
#146 = DATE_AND_TIME ( #147, #101 ) ;
#147 = CALENDAR_DATE ( 2021, 5, 1 ) ;
#148 = CIRCLE ( 'NONE', #174, 5.000000000000000888 ) ;
#149 = CIRCLE ( 'NONE', #154, 5.000000000000001776 ) ;
#150 =( LENGTH_UNIT ( ) NAMED_UNIT ( * ) SI_UNIT ( .MILLI., .METRE. ) );
#151 = ORIENTED_EDGE ( 'NONE', *, *, #179, .F. ) ;
#152 = CC_DESIGN_PERSON_AND_ORGANIZATION_ASSIGNMENT ( #31, #301, ( #228 ) ) ;
#153 = ORIENTED_EDGE ( 'NONE', *, *, #282, .F. ) ;
#154 = AXIS2_PLACEMENT_3D ( 'NONE', #240, #276, #168 ) ;
#155 =( NAMED_UNIT ( * ) SI_UNIT ( $, .STERADIAN. ) SOLID_ANGLE_UNIT ( ) );
#156 = ORIENTED_EDGE ( 'NONE', *, *, #1, .F. ) ;
#157 = EDGE_CURVE ( 'NONE', #102, #58, #216, .T. ) ;
#158 = ORIENTED_EDGE ( 'NONE', *, *, #188, .F. ) ;
#159 = APPLICATION_CONTEXT ( 'configuration controlled 3d designs of mechanical parts and assemblies' ) ;
#160 = DIRECTION ( 'NONE',  ( 0.000000000000000000, 0.000000000000000000, 1.000000000000000000 ) ) ;
#161 = DIRECTION ( 'NONE',  ( -0.000000000000000000, 0.000000000000000000, 1.000000000000000000 ) ) ;
#162 = ORIENTED_EDGE ( 'NONE', *, *, #117, .F. ) ;
#163 = AXIS2_PLACEMENT_3D ( 'NONE', #70, #297, #245 ) ;
#164 = FACE_OUTER_BOUND ( 'NONE', #29, .T. ) ;
#165 = APPLICATION_PROTOCOL_DEFINITION ( 'international standard', 'config_control_design', 1994, #65 ) ;
#166 = CARTESIAN_POINT ( 'NONE',  ( -1.614212418857619014, 0.000000000000000000, 12.69999999999999929 ) ) ;
#167 = CARTESIAN_POINT ( 'NONE',  ( -3.000000000000000000, 0.000000000000000000, 0.000000000000000000 ) ) ;
#168 = DIRECTION ( 'NONE',  ( 0.000000000000000000, 0.000000000000000000, 1.000000000000000000 ) ) ;
#169 = FACE_BOUND ( 'NONE', #209, .T. ) ;
#170 = PERSON_AND_ORGANIZATION_ROLE ( 'creator' ) ;
#171 = CARTESIAN_POINT ( 'NONE',  ( -3.000000000000000000, 0.000000000000000000, 5.000000000000000000 ) ) ;
#172 = CLOSED_SHELL ( 'NONE', ( #47, #127, #333, #38, #316, #10, #25, #24, #57, #237 ) ) ;
#173 = CARTESIAN_POINT ( 'NONE',  ( -1.614212418857619014, 6.123233995736767268E-16, -5.000000000000000888 ) ) ;
#174 = AXIS2_PLACEMENT_3D ( 'NONE', #198, #40, #116 ) ;
#175 = APPROVAL_PERSON_ORGANIZATION ( #225, #327, #309 ) ;
#176 = EDGE_CURVE ( 'NONE', #89, #82, #56, .T. ) ;
#177 = ADVANCED_BREP_SHAPE_REPRESENTATION ( 'QM-AAQWP-10-900-2100-M', ( #75, #334 ), #294 ) ;
#178 = SECURITY_CLASSIFICATION_LEVEL ( 'unclassified' ) ;
#179 = EDGE_CURVE ( 'NONE', #199, #82, #331, .T. ) ;
#180 = AXIS2_PLACEMENT_3D ( 'NONE', #18, #142, #218 ) ;
#181 = CYLINDRICAL_SURFACE ( 'NONE', #46, 5.000000000000000888 ) ;
#182 = CARTESIAN_POINT ( 'NONE',  ( -0.5000000000000002220, 0.000000000000000000, 0.000000000000000000 ) ) ;
#183 = ORIENTED_EDGE ( 'NONE', *, *, #274, .F. ) ;
#184 = CARTESIAN_POINT ( 'NONE',  ( -3.000000000000000000, 1.555301434917138433E-15, -12.69999999999999929 ) ) ;
#185 = AXIS2_PLACEMENT_3D ( 'NONE', #7, #4, #5 ) ;
#186 = ORIENTED_EDGE ( 'NONE', *, *, #117, .T. ) ;
#187 = LOCAL_TIME ( 10, 42, 9.000000000000000000, #275 ) ;
#188 = EDGE_CURVE ( 'NONE', #219, #321, #73, .T. ) ;
#189 = DIRECTION ( 'NONE',  ( -1.000000000000000000, -0.000000000000000000, -0.000000000000000000 ) ) ;
#190 = DIRECTION ( 'NONE',  ( -1.000000000000000000, -0.000000000000000000, -0.000000000000000000 ) ) ;
#191 = CYLINDRICAL_SURFACE ( 'NONE', #226, 12.69999999999999929 ) ;
#192 = APPROVAL_ROLE ( '' ) ;
#193 = DIRECTION ( 'NONE',  ( -1.000000000000000000, -0.000000000000000000, -0.000000000000000000 ) ) ;
#194 = EDGE_CURVE ( 'NONE', #319, #102, #60, .T. ) ;
#195 = VECTOR ( 'NONE', #220, 1000.000000000000000 ) ;
#196 = ORIENTED_EDGE ( 'NONE', *, *, #188, .T. ) ;
#197 = CALENDAR_DATE ( 2021, 5, 1 ) ;
#198 = CARTESIAN_POINT ( 'NONE',  ( -0.5000000000000002220, 0.000000000000000000, 0.000000000000000000 ) ) ;
#199 = VERTEX_POINT ( 'NONE', #320 ) ;
#200 = PERSON_AND_ORGANIZATION ( #256, #22 ) ;
#201 = CARTESIAN_POINT ( 'NONE',  ( 3.000000000000000000, 0.000000000000000000, 5.000000000000001776 ) ) ;
#202 = ORIENTED_EDGE ( 'NONE', *, *, #287, .T. ) ;
#203 = CARTESIAN_POINT ( 'NONE',  ( -1.614212418857619014, 0.000000000000000000, 5.000000000000000888 ) ) ;
#204 = EDGE_CURVE ( 'NONE', #82, #199, #96, .T. ) ;
#205 = LOCAL_TIME ( 10, 42, 9.000000000000000000, #64 ) ;
#206 = DATE_AND_TIME ( #227, #326 ) ;
#207 = DIRECTION ( 'NONE',  ( -1.000000000000000000, -0.000000000000000000, -0.000000000000000000 ) ) ;
#208 = CARTESIAN_POINT ( 'NONE',  ( 3.000000000000000000, 0.000000000000000000, 12.69999999999999929 ) ) ;
#209 = EDGE_LOOP ( 'NONE', ( #300, #303 ) ) ;
#210 = ORIENTED_EDGE ( 'NONE', *, *, #179, .T. ) ;
#211 = DIRECTION ( 'NONE',  ( 0.000000000000000000, 0.000000000000000000, -1.000000000000000000 ) ) ;
#212 = ORIENTED_EDGE ( 'NONE', *, *, #51, .F. ) ;
#213 = DIRECTION ( 'NONE',  ( 0.000000000000000000, 0.000000000000000000, 1.000000000000000000 ) ) ;
#214 = ORIENTED_EDGE ( 'NONE', *, *, #204, .F. ) ;
#215 = CARTESIAN_POINT ( 'NONE',  ( -3.000000000000000000, 6.123233995736766282E-16, -5.000000000000000000 ) ) ;
#216 = CIRCLE ( 'NONE', #163, 5.000000000000000000 ) ;
#217 = CYLINDRICAL_SURFACE ( 'NONE', #330, 12.69999999999999929 ) ;
#218 = DIRECTION ( 'NONE',  ( 0.000000000000000000, 0.000000000000000000, 1.000000000000000000 ) ) ;
#219 = VERTEX_POINT ( 'NONE', #268 ) ;
#220 = DIRECTION ( 'NONE',  ( -1.000000000000000000, -0.000000000000000000, -0.000000000000000000 ) ) ;
#221 = DIRECTION ( 'NONE',  ( -1.000000000000000000, 0.000000000000000000, -0.000000000000000000 ) ) ;
#222 = CC_DESIGN_PERSON_AND_ORGANIZATION_ASSIGNMENT ( #112, #122, ( #228 ) ) ;
#223 = DESIGN_CONTEXT ( 'detailed design', #65, 'design' ) ;
#224 = CC_DESIGN_APPROVAL ( #327, ( #129 ) ) ;
#225 = PERSON_AND_ORGANIZATION ( #256, #22 ) ;
#226 = AXIS2_PLACEMENT_3D ( 'NONE', #35, #135, #241 ) ;
#227 = CALENDAR_DATE ( 2021, 5, 1 ) ;
#228 = PRODUCT_DEFINITION_FORMATION_WITH_SPECIFIED_SOURCE ( 'ANY', '', #61, .NOT_KNOWN. ) ;
#229 = APPROVAL ( #88, 'UNSPECIFIED' ) ;
#230 = DIRECTION ( 'NONE',  ( -1.000000000000000000, -0.000000000000000000, -0.000000000000000000 ) ) ;
#231 = PLANE ( 'NONE',  #185 ) ;
#232 = ORIENTED_EDGE ( 'NONE', *, *, #204, .T. ) ;
#233 = CARTESIAN_POINT ( 'NONE',  ( -1.614212418857619014, 0.000000000000000000, 0.000000000000000000 ) ) ;
#234 = EDGE_CURVE ( 'NONE', #292, #328, #269, .T. ) ;
#235 = DIRECTION ( 'NONE',  ( -1.000000000000000000, -0.000000000000000000, -0.000000000000000000 ) ) ;
#236 = ORIENTED_EDGE ( 'NONE', *, *, #194, .F. ) ;
#237 = ADVANCED_FACE ( 'NONE', ( #262 ), #231, .F. ) ;
#238 = FACE_OUTER_BOUND ( 'NONE', #14, .T. ) ;
#239 = PERSON_AND_ORGANIZATION ( #256, #22 ) ;
#240 = CARTESIAN_POINT ( 'NONE',  ( 3.000000000000000000, 0.000000000000000000, 0.000000000000000000 ) ) ;
#241 = DIRECTION ( 'NONE',  ( 0.000000000000000000, 0.000000000000000000, 1.000000000000000000 ) ) ;
#242 = CALENDAR_DATE ( 2021, 5, 1 ) ;
#243 = ORIENTED_EDGE ( 'NONE', *, *, #51, .T. ) ;
#244 = DATE_AND_TIME ( #197, #187 ) ;
#245 = DIRECTION ( 'NONE',  ( 0.000000000000000000, 0.000000000000000000, 1.000000000000000000 ) ) ;
#246 = AXIS2_PLACEMENT_3D ( 'NONE', #325, #193, #95 ) ;
#247 = DIRECTION ( 'NONE',  ( 0.000000000000000000, 0.000000000000000000, -1.000000000000000000 ) ) ;
#248 = APPROVAL_DATE_TIME ( #15, #229 ) ;
#249 = CARTESIAN_POINT ( 'NONE',  ( 3.000000000000000000, 12.69999999999999929, 0.000000000000000000 ) ) ;
#250 = APPROVAL_PERSON_ORGANIZATION ( #200, #279, #192 ) ;
#251 = ORIENTED_EDGE ( 'NONE', *, *, #282, .T. ) ;
#252 = CIRCLE ( 'NONE', #52, 12.69999999999999929 ) ;
#253 = AXIS2_PLACEMENT_3D ( 'NONE', #125, #78, #260 ) ;
#254 = CC_DESIGN_DATE_AND_TIME_ASSIGNMENT ( #206, #286, ( #129 ) ) ;
#255 = SHAPE_DEFINITION_REPRESENTATION ( #272, #177 ) ;
#256 = PERSON ( 'UNSPECIFIED', 'UNSPECIFIED', 'UNSPECIFIED', ('UNSPECIFIED'), ('UNSPECIFIED'), ('UNSPECIFIED') ) ;
#257 = ORIENTED_EDGE ( 'NONE', *, *, #53, .T. ) ;
#258 = CARTESIAN_POINT ( 'NONE',  ( -0.5000000000000002220, 0.000000000000000000, 5.000000000000000888 ) ) ;
#259 = EDGE_LOOP ( 'NONE', ( #264, #79 ) ) ;
#260 = DIRECTION ( 'NONE',  ( 0.000000000000000000, 0.000000000000000000, 1.000000000000000000 ) ) ;
#261 = VERTEX_POINT ( 'NONE', #295 ) ;
#262 = FACE_OUTER_BOUND ( 'NONE', #259, .T. ) ;
#263 = LINE ( 'NONE', #173, #106 ) ;
#264 = ORIENTED_EDGE ( 'NONE', *, *, #53, .F. ) ;
#265 = EDGE_CURVE ( 'NONE', #58, #102, #83, .T. ) ;
#266 = EDGE_LOOP ( 'NONE', ( #153, #50 ) ) ;
#267 = PERSON_AND_ORGANIZATION_ROLE ( 'design_owner' ) ;
#268 = CARTESIAN_POINT ( 'NONE',  ( -3.000000000000000000, 0.000000000000000000, 12.69999999999999929 ) ) ;
#269 = CIRCLE ( 'NONE', #120, 12.69999999999999929 ) ;
#270 = ORIENTED_EDGE ( 'NONE', *, *, #265, .T. ) ;
#271 = DIRECTION ( 'NONE',  ( -1.000000000000000000, -0.000000000000000000, -0.000000000000000000 ) ) ;
#272 = PRODUCT_DEFINITION_SHAPE ( 'NONE', 'NONE',  #48 ) ;
#273 = CARTESIAN_POINT ( 'NONE',  ( -3.000000000000000000, 5.000000000000000000, 0.000000000000000000 ) ) ;
#274 = EDGE_CURVE ( 'NONE', #128, #58, #2, .T. ) ;
#275 = COORDINATED_UNIVERSAL_TIME_OFFSET ( 8, 0, .AHEAD. ) ;
#276 = DIRECTION ( 'NONE',  ( -1.000000000000000000, -0.000000000000000000, -0.000000000000000000 ) ) ;
#277 = AXIS2_PLACEMENT_3D ( 'NONE', #273, #23, #247 ) ;
#278 = CARTESIAN_POINT ( 'NONE',  ( -1.614212418857619014, 0.000000000000000000, 0.000000000000000000 ) ) ;
#279 = APPROVAL ( #55, 'UNSPECIFIED' ) ;
#280 = VECTOR ( 'NONE', #207, 1000.000000000000000 ) ;
#281 = LOCAL_TIME ( 10, 42, 9.000000000000000000, #136 ) ;
#282 = EDGE_CURVE ( 'NONE', #328, #292, #62, .T. ) ;
#283 = CC_DESIGN_PERSON_AND_ORGANIZATION_ASSIGNMENT ( #20, #170, ( #48 ) ) ;
#284 = AXIS2_PLACEMENT_3D ( 'NONE', #233, #190, #131 ) ;
#285 = CC_DESIGN_APPROVAL ( #229, ( #228 ) ) ;
#286 = DATE_TIME_ROLE ( 'classification_date' ) ;
#287 = EDGE_CURVE ( 'NONE', #292, #321, #30, .T. ) ;
#288 = CC_DESIGN_PERSON_AND_ORGANIZATION_ASSIGNMENT ( #92, #267, ( #61 ) ) ;
#289 = CARTESIAN_POINT ( 'NONE',  ( 3.000000000000000000, 1.555301434917138433E-15, -12.69999999999999929 ) ) ;
#290 = DIRECTION ( 'NONE',  ( -1.000000000000000000, -0.000000000000000000, -0.000000000000000000 ) ) ;
#291 = AXIS2_PLACEMENT_3D ( 'NONE', #13, #110, #213 ) ;
#292 = VERTEX_POINT ( 'NONE', #289 ) ;
#293 = CC_DESIGN_SECURITY_CLASSIFICATION ( #129, ( #228 ) ) ;
#294 =( GEOMETRIC_REPRESENTATION_CONTEXT ( 3 ) GLOBAL_UNCERTAINTY_ASSIGNED_CONTEXT ( ( #68 ) ) GLOBAL_UNIT_ASSIGNED_CONTEXT ( ( #150, #100, #155 ) ) REPRESENTATION_CONTEXT ( 'NONE', 'WORKASPACE' ) );
#295 = CARTESIAN_POINT ( 'NONE',  ( 3.000000000000000000, 6.123233995736768255E-16, -5.000000000000001776 ) ) ;
#296 = CARTESIAN_POINT ( 'NONE',  ( 0.000000000000000000, 0.000000000000000000, 0.000000000000000000 ) ) ;
#297 = DIRECTION ( 'NONE',  ( -1.000000000000000000, -0.000000000000000000, -0.000000000000000000 ) ) ;
#298 = EDGE_LOOP ( 'NONE', ( #196, #86 ) ) ;
#299 = FACE_OUTER_BOUND ( 'NONE', #266, .T. ) ;
#300 = ORIENTED_EDGE ( 'NONE', *, *, #157, .F. ) ;
#301 = PERSON_AND_ORGANIZATION_ROLE ( 'creator' ) ;
#302 = DIRECTION ( 'NONE',  ( -1.000000000000000000, -0.000000000000000000, -0.000000000000000000 ) ) ;
#303 = ORIENTED_EDGE ( 'NONE', *, *, #265, .F. ) ;
#304 = MECHANICAL_CONTEXT ( 'NONE', #159, 'mechanical' ) ;
#305 = CARTESIAN_POINT ( 'NONE',  ( -1.614212418857619014, 0.000000000000000000, 0.000000000000000000 ) ) ;
#306 = ORIENTED_EDGE ( 'NONE', *, *, #287, .F. ) ;
#307 = CARTESIAN_POINT ( 'NONE',  ( -1.614212418857619014, 0.000000000000000000, 5.000000000000000888 ) ) ;
#308 = VECTOR ( 'NONE', #271, 1000.000000000000000 ) ;
#309 = APPROVAL_ROLE ( '' ) ;
#310 = AXIS2_PLACEMENT_3D ( 'NONE', #107, #290, #49 ) ;
#311 = FACE_OUTER_BOUND ( 'NONE', #6, .T. ) ;
#312 = EDGE_CURVE ( 'NONE', #128, #319, #123, .T. ) ;
#313 = ORIENTED_EDGE ( 'NONE', *, *, #176, .T. ) ;
#314 = AXIS2_PLACEMENT_3D ( 'NONE', #278, #114, #87 ) ;
#315 = AXIS2_PLACEMENT_3D ( 'NONE', #249, #137, #161 ) ;
#316 = ADVANCED_FACE ( 'NONE', ( #311 ), #27, .F. ) ;
#317 = CARTESIAN_POINT ( 'NONE',  ( 3.000000000000000000, 0.000000000000000000, 0.000000000000000000 ) ) ;
#318 = ORIENTED_EDGE ( 'NONE', *, *, #234, .T. ) ;
#319 = VERTEX_POINT ( 'NONE', #258 ) ;
#320 = CARTESIAN_POINT ( 'NONE',  ( 0.5000000000000004441, 6.123233995736766282E-16, -5.000000000000000000 ) ) ;
#321 = VERTEX_POINT ( 'NONE', #184 ) ;
#322 = DIRECTION ( 'NONE',  ( 1.000000000000000000, 0.000000000000000000, 0.000000000000000000 ) ) ;
#323 = FACE_OUTER_BOUND ( 'NONE', #108, .T. ) ;
#324 = CARTESIAN_POINT ( 'NONE',  ( -1.614212418857619014, 0.000000000000000000, 0.000000000000000000 ) ) ;
#325 = CARTESIAN_POINT ( 'NONE',  ( -3.000000000000000000, 0.000000000000000000, 0.000000000000000000 ) ) ;
#326 = LOCAL_TIME ( 10, 42, 9.000000000000000000, #74 ) ;
#327 = APPROVAL ( #335, 'UNSPECIFIED' ) ;
#328 = VERTEX_POINT ( 'NONE', #208 ) ;
#329 = CARTESIAN_POINT ( 'NONE',  ( -0.5000000000000002220, 6.123233995736767268E-16, -5.000000000000000888 ) ) ;
#330 = AXIS2_PLACEMENT_3D ( 'NONE', #324, #67, #41 ) ;
#331 = CIRCLE ( 'NONE', #180, 5.000000000000000000 ) ;
#332 = APPROVAL_DATE_TIME ( #146, #327 ) ;
#333 = ADVANCED_FACE ( 'NONE', ( #54 ), #181, .F. ) ;
#334 = AXIS2_PLACEMENT_3D ( 'NONE', #296, #160, #322 ) ;
#335 = APPROVAL_STATUS ( 'not_yet_approved' ) ;
ENDSEC;
END-ISO-10303-21;
